Click here for a printer friendly version of this page
So Moved On > lead

Solo from “34th and 8th? for So Moved On Transcribed by patpatpatme
(http://patpatpat.sytes.net)

Solo:
e--------------------------------------------------------------
b--------------------------------------------------------------
g-------------------------------------7-6---------------9~~----
d----------------7--/11-9-9p7-----------9p7--------------------
a-----5-5-7-9--------------------9----------------9------------
e--------------------------------------------------------------

e--------------------------------------------------------------------------------------
b-------17-------------------------------17-------------------------17-17-17-17b~~-----
g--16b-----16bp14------14-14-16b------16bp14-------14-14-16b---------------------------
d----------------------16--------------------------------16----------------------------
a--------------------------------------------------------------------------------------
e--------------------------------------------------------------------------------------

e---------------------17-14-----14-----------------------------------------------------
b------17------17-----------17-----17-14-17-14------14---------------------------------
g--/18------/18--------------------------------------16------16-14-16b-14--------------
d-----------------------------------------------------------------------------16-14----
a--------------------------------------------------------------------------------------
e--------------------------------------------------------------------------------------

e------------------------------------------------------------17-----------17--------17-
b------------------------------------------17-17----------------17h19------17h19-------
g------------------------14-14-16-16b---------------19---------------------------------
d-----------14-14h16-------------------------------------------------------------------
a—14h16--------------------------------------------------------------------------------
e--------------------------------------------------------------------------------------

e-----------17----------17---------17---------17-------19-19-19b(x5)-19bp17-------17---
b—17h19-----17h19-----17h19----17h19-----17---------------------------------19---------
g--------------------------------------------------------------------------------------
d--------------------------------------------------------------------------------------
a--------------------------------------------------------------------------------------
e--------------------------------------------------------------------------------------