Click here for a printer friendly version of this page
Message In A Bottle > guitar

transcribed by oarboat

Verse-"Just a Castaway..."
------------------------------------------e
------------------------------------------
-------8------4-----6---------------------
----6-------2-----4-------6---------------
-4-------0------2-------4-----------------
----------------------2------------------E

Chorus- "I'll send an S.O.S. to the world..."
------------------x--x--x-------x------------e
------------------5--x--x-------x------------
------7---9-------6--6--5-------x------------
--7---7---9--x2---6--7--6--x2---4------------
--7---5---7-------4--7--6-------4------------
--5---------------x--5--4-------2------------E

Outro-strummed
-x--x--x--x-----------------------------------e
-x--x--x--x-----------------------------------
-8--4--6--x-----------------------------------
-6--2--4--6-----------------------------------
-4--0--2--4-----------------------------------
-x--x--x--2-----------------------------------E

enjoy---and download the northberg shows they are amazing!!!
They should bust this song back out live full band!!!