Click here for a printer friendly version of this page
Heard The World > guitar

transcribed by oarboat

Intro- I just heard the world...is....
--------------------------------------e
--------------------------------------
--------------------------------------
---------5--7s8--7--------------------
---5--7-------------------------------
--------------------------------------E

Pre-verse- (played once at the beginning)- breakin down into bits again...
--3---5---5---5----3---5----3---------e
--3---5---5---h6---3---h6---3---------
--4---5---5---h7---4---h7---4---------
--5---7---5---h7---5---h7---5---------
--5---7---5---5----5---5----5---------
--3---5---5---5----3---5----3---------E

Verse- Home my last resort.....
------5---3---------------------------e
--1---6---3---------------------------
--2---7---4---------------------------
--2---7---5---------------------------
------5---5---------------------------
------5---3---------------------------E

Chorus- I heard the world up late night...
----------1--------3------------------e
--1---1---1---1----3------------------
--2-------2---------------------------
--2---2---3---2-----------------------
------3---3---3----2------------------
----------x--------3------------------E
Bridge- Nothing's gonna save me...
------1-------3-----------------------e
--1---1---1---3-----------------------
--2---2-------------------------------
--2---3---2---------------------------
------3---3---2-----------------------
------1-------3-----------------------E