Click here for a printer friendly version of this page
Tragedy In Waiting > guitar

Stories Of A Stranger
transcribed by oarboat

Intro/Verse- "It's a tragedy in waiting..."
--7---5----------------------------------e
--8---7-----------------------------------
--9---7-----------------------------------
--9---7-----------------------------------
--7---5-----------------------------------
--7---5----------------------------------E
  Em  D

Chorus- "Sometimes we might fall,stand up taller"
--2---3---2---3----2---3---2-------------e
--3---3---3---3----3---3---3---2----------
--2-------4--------2-------4---2----------
----------4----------------4---2----------
------2---2---2--------2---2--------------
------3---2---3--------3---2-------------E
  D   G   Bm  G    D   G   Bm  A

Bridge- "I've got a mind to wonder..."
--2---2-----------3------2---2---3-------e
--3---3---2-------3---2--3---3---3---2----
--4---2---2--x3-------2--2---4-------2----
--4-------2-----------2------4-------2----
--2---------------2----------2---2--------
--3---------------3----------2---3-------E
  Bm  D   A       G   A  D   Bm  G   A