Click here for a printer friendly version of this page
Love And Memories > guitar

transcribed by facruzer

intro
e|--------------------------------------------------|
B|--------------------------------------------------|
G|--8-8-8---9-9-9-9--18-18-18-18--13-13-13-13-13----|
D|--x-x-x---x-x-x-x---x--x--x--x---x--x--x--x--x----|
A|--6-6-6---7-7-7-7--16-16-16-16--11-11-11-11-11----|
E|--7-7-7---9-9-9-9--17-17-17-17--12-12-12-12-12----|

e|----------------------------------------------|
B|----------------------------------------------|
G|--8-8-8---9-9-9----6-6-6-6------2-2-2-2-------|
D|--x-x-x---x-x-x----x-x-x-x------2-2-2-2-------|
A|--6-6-6---7-7-7----4-4-4-4------2-2-2-2-------|
E|--7-7-7---9-9-9----5-5-5-5------0-0-0-0-------|

guitar 2
e|-------------------------------------------|
B|------9-10-9-------------------------------|
G|-9-11--------11-9-11--(9)last-time---------|
D|-------------------------------------------|
A|-------------------------------------------|
E|-------------------------------------------|