Click here for a printer friendly version of this page
Love And Memories > guitar

acoustic version

Chorus Chords

-B--C#m--A--E----
-0--0----0--0----
-0--5----0--0----
-4--6----2--1----
-4--6----2--2----
-2--4----0--2----
------------0----

Lead on Chorus

-12--------------------------------------------
-------9-10-9---------12----9-10-9-------------
----11--------11-9-11----11--------11-9-11-----
-----------------------------------------------
-----------------------------------------------
-----------------------------------------------

Verse Chords

-E--B--A--
-0--0--0--
-0--0--0--
-9--8--6--
-9--9--7--
-7--6--7--
-------5--

Bridge Chords

-E--D--C--B--
-0--0--0--0--
-0--0--0--0--
-9--7--5--4--
-9--7--5--4--
-7--5--3--2--
-------------