Click here for a printer friendly version of this page
City On Down > bass

Transcribed by Mike Larson (oarcat@email.com)

probably the hardest song to tab on bass because Benj uses so many different lines 
moving up the neck.. here are a few of the ones he uses

----------------------------4------7----5--4-----------5----5--7--9--7--9----------------
---------2-----2--3---5--5------5-----5-------5---7--7---7----------------------10---10--
---3--3-----3--------------------------------------------------------------8-----8-------
-----------------------------------------------------------------------------------------

-------------------------
-------------------------
-10--8--7---3------------
-------------------------

the key to moving up the neck is to land on a C - G - A - F when they are first being 
played by the guitar player.