Click here for a printer friendly version of this page
About An Hour Ago > lead

transcribed by twigwam and corrected by patpatpatme (http://patpatpat.sytes.net)

lead from Any Time Now
  * Key of C
  * Solo uses the C major scale 

b=bend (usually slow and or more than a full step)
p=pull
bp=bend then pull
h=hammer
/=slide
~=vibrato

Rythm: G  Am      C          
    G     Am (Am)  C (C)     G G    D  G
e|--3------5--0----0--8------7-9-10-12--|
B|--3------5--1----1--9------8-8-11-11--|
G|--4------5--2----0-10------7-7-12-12--|
D|--5---------2----2-10-----------------|
A|-----------(0)---3--------------------|
E|--------------------------------------|

e|--------------------------------------------------------------------|
B|---8----------------------------------------------------------------|
G|-7---7----7h9-7-----------------------------------------------------|
D|-----------------9-7/5---5-7b--5-------------------5---5-7b---------|
A|----------------------7---------7-----5h7-7b--5-7---7---------------|
E|--------------------------------------------------------------------|

e|--------------------------------------------------------------------|
B|-------------------------------------------------8/10-8------8-10---|
G|----------------------------5-7--7/9-7---7/9 7-------------9--------|
D|-----------5-7-5--7-5--7-9------------------------------------------|
A|-------5-7----------------------------------------------------------|
E|-5h7-8--------------------------------------------------------------|

e|--------------------------------------------------------------------|
B|-10-10-10/12----12-13-15-15b16-13-12--13-12-------------------------|
G|-------------------------------------------14-12-14b-12-------------|
D|--------------------------------------------------------14-12-14-12-|
A|--------------------------------------------------------------------|
E|--------------------------------------------------------------------|

e|--------------------------------------------------------------------|
B|--------------------------------------------------------------------|
G|------------------------------12----12-14b---12---------------------|
D|----12-12-12-12-14------12h14----14-------------14------------------|
A|-14-----------------------------------------------------------------|
E|--------------------------------------------------------------------|

e|--------------------------------------------------------------------|
B|-----------------------------------------------------------12-13-12-|
G|-------12----12-14b-----14p12---------------12-14-14b---------------|
D|-12h14----14------------------14------12-14-------------------------|
A|--------------------------------------------------------------------|
E|--------------------------------------------------------------------|

e|----------12-----15-12--15—17b----------x-x-15----17-15----15-------|
B|-15-13-12-12----------------------------x-x-15-17-------17-15-------|
G|--------------------------------------------------------------------|
D|--------------------------------------------------------------------|
A|--------------------------------------------------------------------|
E|--------------------------------------------------------------------|

e|-19--19--15--17--15--------15-----15--19--17--15------15---15-17-15---|
B|---------------------15h17----15-----------------15-17--17----------17|
G|----------------------------------------------------------------------|
D|----------------------------------------------------------------------|
A|----------------------------------------------------------------------|
E|----------------------------------------------------------------------|


e|-19-15-17-15-------15--19-15-17-15-------15--19-15-17-15-------15---|
B|-------------17-15-----------------17-15-----------------17-15------|
G|--------------------------------------------------------------------|
D|--------------------------------------------------------------------|
A|--------------------------------------------------------------------|
E|--------------------------------------------------------------------|

e|-19-15-17-15-------15--19-15-17-15--------19-x---20-x----19-x-------|
B|-------------17-15-----------------17-15----------------------------|
G|--------------------------------------------------------------------|
D|--------------------------------------------------------------------|
A|--------------------------------------------------------------------|
E|--------------------------------------------------------------------|

e|--17/15-------------------------------------------------------------|
B|--------17—17/15 15/12-12h13-12-------------------17---------20-----|
G|--------------------------------14-12/14 14/16-16---16-19-19b—-19b--|
D|--------------------------------------------------------------------|
A|--------------------------------------------------------------------|
E|--------------------------------------------------------------------|

e|--------------------------------------------------------------------|
B|----------------------------------12^13-------13-12-----12-13-13b-12|
G|17-19b-17/16-16h17-16--14-14-12-12-------12-14-----14-------------- 12--14-12
D|--------------------------------------------------------------------|
A|--------------------------------------------------------------------|
E|--------------------------------------------------------------------|