Click here for a printer friendly version of this page
About An Hour Ago > bass

transcribed by O-52-A-50-R

Intro:
|-----------------------------------------------5-5-----5-5-------------------|
|--5-5-------5-5-----5-----7-7------7-7-----5---------------------5-5-----5-5-|
|----------------5/7--------------------5/7---3-----3-3-----5/7---------------|
|3-------3-3-----------3-5------5-5-----0-----------------------3-----3-3-----|

Verses/Choruses:

|---------------------------------------------------------------------------------|
|---------------------------------------------------------------------------------|
|----------------------------------------3--3-3--3-3--3-3--2h3p2------------------|
|3--3-3--3-3--3-3--3-5--5-5--5-5--5-5--3-------------------------3--3-3--3-3--3-3-|