Click here for a printer friendly version of this page
Here's To You > bass

transcribed by AllSidesKing420

G|-------
D|-------
A|-------
E|--3\2—
 
Verse/Main Riff
G|----------------
D|----------------
A|--------5-------
E|--7--5-----3\2--
 
“I’ve been woken”
 
G|--------------------------------------
D|-----------------5-----7--------------
A|--5--0--2-----------------------------
E|-----------2--3-----5-----7--7--7--5—-
 
From this day on
G|-----------
D|-----------
A|--------5--
E|--3--5-----
 
This is pretty much the whole song. Obviously mixes are a must as Benj uses arpeggios at the end
 
G|--------------------------
D|-----------------7-----7--
A|-----2-----4--5-----5-----
E|--3-----5-----------------
 
 
G|---------------------------------------
D|-----------------------------7\4--7\4--
A|-----2--5--2-----4--7--4--5------------
E|--3-----------5------------------------