Click here for a printer friendly version of this page
Place To Hide > guitar

transcribed by oarboat

Capo 1

Intro/Verse -  "I thought the rains would never come here"
(finger pick through these chords - hammering on and off occasionally)
   C     F     C     G
---------------------3-----e
---1-----1-----1-----3------
---------2-----------4------
---2-----3-----2-----5------
---3-----------3-----5------
---------------------------E

Chorus - "You and me could, just be crazy"
   C    G      Am    G
--------3------------3-----e
---1----3------1-----3------
---------------2------------
---2-----------2------------
---3----2------------2------
--------3------------3-----E

Interlude jam - (finger pick through)        
-------------3------------------e
--1-----1----0------1------------
--------------------------x8-----
---------------------------------
--3-----2-----------3------------
--------------------------------E