Click here for a printer friendly version of this page
Favorite Book Of Poetry > guitar

transcribed by Jason Scherrer and Ryan Fightmaster

e ---1-------3---
b ---1---1---3---
g ---2---0-------
d ---3---2---x---
a ---3---3---2---
E ---1-------3---

Intro (2 times):

e -------------------------------------------------
b -----1--------1--------1--------1--------1-------
g --------2--------2--------2--------2--------2----
d --3--------3--------3--------3--------3----------
a -------------------------------------------------
E -------------------------------------------------

e -------------------------------------------------
b -----1--------1--------1--------1--------1-------
g --------0--------0--------0--------0--------0----
d --2--------2--------2--------2--------2----------
a -------------------------------------------------
E -------------------------------------------------

e -------------------------------------------------
b -----3--------3--------3--------3--------3-------
g --------0--------0--------0--------0--------0----
d --0--------0--------0--------0--------0----------
a -------------------------------------------------
E -------------------------------------------------

e -------------------------------------------------
b -----3--------3--------3--------3--------3-------
g --------0--------0--------0--------0--------0----
d --0--------0--------0--------0--------0----------
a -------------------------------------------------
E -------------------------------------------------