Click here for a printer friendly version of this page
Heard The World > guitar

transcribed by Ryan Fightmaster, Joe Scalfaro, & Tom Pacyk

Intro:

E-----------------------------
B-----------------------------
G-----------------------------
D-----------5---7--7/8---7---- 
A---5---7---------------------
E-----------------------------


First Part (Only play 1 time through)
"I just heard the world..."

E---3---3---5---5---3---3---4---5---
B---3---3---5---6---3---3---4---5---
G---4---4---5---7---4---4---4---5---
D---5---5---7---7---5---5-/-6-/-7---
A---5---5---7---5---5---5-/-6-/-7---
E---3---3---5---5---3---3-/-4-/-5---


Second Part (Play the rest of the song)
"And if this world is crumbling down..."

E---5---5---3---3---
B---5---6---3---3---
G---5---7---4---4---
D---7---7---5---5---
A---7---5---5---5---
E---5---5---3---3---

Notes:

Once in awhile during the second part Marc
does play the slide shown in the first part
but it's fairly sporadic so I omitted it