Click here for a printer friendly version of this page
Here's To You > guitar

transcribed by Jason Scherrer

Intro/Verse

e-----------2---3---2---
b---7---5---3-------2---
g---7---6---2-------3---
d---9---7-------x---4---
a---9---7-------2---4---
E---------------3---2---

Chorus

e---2--2--2-----3-----2------  x2   -2--2--2-----3-----
b---3--2--3--2-----2--3----2-       -3--2--3--2-----2--
g---2--3--4--2-----2--4----2-       -2--3--4--2-----2--
d------4--4--2--x--2--4----2-       ----4--4--2--x--2--
a------4--2-----2-----2------       ----4--2-----2-----
E------2--2-----3-----2------       ----2--2-----3-----

I've been walking...........

e---3-------2---2--
b-------2---3---3--
g-------2---2---2--
d---x---2----------
a---2--------------
E---3--------------

from this day on, I swear to you true