Click here for a printer friendly version of this page
Hold On True > lead

transcribed by Tristan Sieve (tsieve@email.arizona.edu)


 Main Theme 1st time
 E ---16p12----14-12-------12-------12p9------------------
 B 12-------12-------12h14----12--9------9-12-9-9h10-9----
 G ----------------------------------------------------11-
 D -------------------------------------------------------
 A -------------------------------------------------------
 E -------------------------------------------------------

 E ---16p12----14-12-------12----------12p9------------------
 B 12-------12-------12h14----12h14--9------9-12-9-9h10-9----
 G -------------------------------------------------------11-
 D ----------------------------------------------------------
 A ----------------------------------------------------------
 E ----------------------------------------------------------

 E ---16p12----14-12-------12----------12p9------------------
 B 12-------12-------12h14----12h14--9------9-12-9-9h10-9----
 G -------------------------------------------------------11-
 D ----------------------------------------------------------
 A ----------------------------------------------------------
 E ----------------------------------------------------------

 E ---16p12----14-12-------12-------12p9--------------------|
 B 12-------12-------12h14----12--9------9-12-9-9h10-9------|
 G ----------------------------------------------------11-9-|
 D ---------------------------------------------------------|
 A ---------------------------------------------------------|
 E ---------------------------------------------------------|



       we coulda been so much better off than before...
 E 5---7---5--|
 B 5---7---5--|
 G 6---8---6--|
 D 7---9---7--|
 A 7---9---7--|
 E 5---7---5--|



 Main Theme 2nd time
 E ---16p12----14-12-------12-------12p9------------------
 B 12-------12-------12h14----12-9------9-12-9-9h10-9----  repeat 3x
 G ----------------------------------------------------11-
 D -------------------------------------------------------
 A -------------------------------------------------------
 E -------------------------------------------------------

 E ---16p12----14-12-------12-------9h12p9----------------|
 B 12-------12-------12h14----12-9--------12-9-----------|
 G ---------------------------------------------11~9-11-9-|
 D -------------------------------------------------------|
 A -------------------------------------------------------|
 E -------------------------------------------------------|



 Verse 2nd time
 E ----------------
 B ---------------- repeat 8x 
 G 9/119---8---6--
 D 9/119---9---7--
 A 7/9-7---9---7--
 E ---------7---5--

 E -----------|
 B -----------|
 G 6---8---6--|
 D 7---9---7--|
 A 7---9---7--|
 E 5---7---5--|



 Bridge
 E ----------------|
 B ---------5---7--| repeat 16x
 G 9---11---6---8--|
 D 9---11---7---9--|
 A 7---9----7---9--|
 E ---------5---7--|



 Outro
 E ---16p12----14-12-------12-------12p9------------------
 B 12-------12-------12h14----12-9------9-12-9-9h10-9----  repeat 3x
 G ----------------------------------------------------11-
 D -------------------------------------------------------
 A -------------------------------------------------------
 E -------------------------------------------------------

 E ---------------------------------------------|
 B ---------------------------------------------|
 G 9-11^13-9----------------------9----11^13-9--|
 D ----------11-11~9h11------9-11---11----------|
 A ---------------------9-11--------------------|
 E ---------------------------------------------|