Click here for a printer friendly version of this page
King Of The Thing > guitar

transcribed by Jason Scherrer & Ryan Fightmaster

Intro

e-------3---1---
b---1-------1---
g---0-------2---
d---2---x---3---
a---3---2---3---
E-------3---1---

Verse

e---7-/-8----3(10)---1(8)----   chords in parentheses are substitutes.  You can do
b---7-/-8----3(12)---1(10)---   either one.
g---8-/-9----4(12)---2(10)---
d---9-/-10---5(12)---3(10)---
a---9-/-10---5(10)---3(8)----
E---7-/-8----3(10)---1(8)----

Chorus

e-------3---1---
b---1-------1---
g---0-------2---
d---2---x---3---
a---3---2---3---
E-------3---1---

Bridge

e------(3)------3---  the parentheses means that it sounds like its there and can be
b---1---1---1-------  played, but doesn't have to be played.
g---2---2---2-------
d---2---3---3---x---
a---------------2---
E---------------3---