Click here for a printer friendly version of this page
Letter In My Hand > guitar

transcribed by Jason Scherrer

h = hammer on
p = pull off

Into

e---3---2(h3p2)-------   in parentheses is optional, Marc does only when he plays
b-------3---------1---   the riff before he sings.  Once he starts singing then
g-------2---------0---   he doesn't do it anymore
d---x-------------2---
a---2-------------3---
E---3-----------------

Verse/Chorus

e---10---10---8----
b---12---10---8----
g---12---11---9----
d---12---12---10---
a---10---12---10---
E---10---10---8----

Chords

G D F C