Click here for a printer friendly version of this page
Right On Time > guitar

transcribed by Jason Scherrer
second guitar part by Amanda (lazyeye03@yahoo.com)

Intro/Verse

e---5---2---3---3--- sometimes marc just strums the first D
b---7---2---3---3--- chord in the verse.  Just listen for it.
g---7---3---4---3---
d---7---4---5---5---
a---5---4---5---5---
E---5---2---3---3---

[Gtr. 2 - Main Riff]
[Played 8x in the intro]
[Play riff in sets of four or eight throughout song]
 e|----------------------------|
 B|----------------------------|
 G|--------7-----9p7-----7-----|
 D|--7--9-----9-------9-----9--|
 A|----------------------------|
 E|----------------------------|

....where have you been

e-------------------
b-------------------
g---7---6---7-------
d---7---7---7---5---
a---5---4---5---5---
E---------------3---

....if you give me just a minute

e-----------5-----------2--- Marc plays the high e and b strings
b-----------5-----------3--- when he's holding thse chords for a while
g---4---6---7---7---6---4---
d---4---6---7---7---6---4---
a---2---4---5---5---4---2--- this repeats, you can figure out the rhythm
E---------------------------

where it switches keys right before it goes back into the main riff

e---3-------3---
b---3-------3---
g-----------4---
d---2-------5---
a---2-------5---
E-------2---3---