Click here for a printer friendly version of this page
Someone In The Road > bass

Transcribed by Mike Larson (oarcat@email.com)

intro: 
------7---4------7---4-------5-------------------------------4----------- 
--5-----------5----------3---------------5--------5---------------7---5-- 
--------------------------------------3------3---------5----------------- 
-------------------------------------------------------------------------
basic verse:  this is just a place to start at,
Benj rarely plays the exact same thing twice

you can play these as 8th note/quarter note pairs to get a solid rhythm going with the 
drums.
-------------------------------------------------------------------------
----------------------3--3----5--5---------------------------------------
---3--3----1--1----------------------------------------------------------
-------------------------------------------------------------------------

you can also use octaves to mix it up like Benj tends to throw in along with alternate 
rhythms

example:
-----------------------------5--------7----------------------------------
------5--------3---------------------------------------------------------
-----------------------3----------5--------------------------------------
---3--------1------------------------------------------------------------

chorus:

C - G - D - A  

just play root notes and octaves of the chords