Click here for a printer friendly version of this page
That Was A Crazy Game Of Poker > lead

from The Wanderer

transcribed originally by "oariscool" from ultimate guitar.com, 
minor corrections made by patpatpatme (http://patpatpat.sytes.net)

b=bend (usually slow and or more than a full step)
p=pull
bp=bend then pull
h=hammer
/=slide
~=vibrato

Intro

e--10-10-12-8-X-8-5-5--------------------------------
B--8--8-----8-X-8-5-5--------------------------------
G----------------------7b-5-----5-----5-7-7b-7-5h7p5-
D---------------------------5h7---5h7----------------
A----------------------------------------------------
E----------------------------------------------------


e----------------------------------------------------
B--------------------------5-6-6-8-8/10-8-6-5--------
G------------5-7b-5-5h7p5----------------------------
D------5-5h7-----------------------------------------
A-5-5h7----------------------------------------------
E----------------------------------------------------


e----------------------0-1-3-3-----------------------
B----------------0-1-3-------------------------------
G------------0-2-------------------------------------
D------0-2-3-----------------------------------------
A--2-3-----------------------------------------------
E----------------------------------------------------


e--10b-8-8-8-10-10-8-7-8-8/10-8----------------------
B----------------------------------------------------
G----------------------------------------------------
D----------------------------------------------------
A----------------------------------------------------
E----------------------------------------------------
Chords for entire song:

C	G	Am	F
e-0	e-3	e-0	e-1
B-1	B-3	B-1	B-1
G-0	G-0	G-2	G-2
D-2	D-0	D-2	D-3
A-3	A-2	A-0	A-0
E-0	E-3	E-0	E-0

Bridge hammered on with Am


Solo 1 ~ 2:59

e--8---8-10-10-10-/12-8-8----------------------------
B----8-8-8--8--8---12-8-8----------------------------
G---------------------------7b-5-----5-7b-5~~--------
D--------------------------------5h7-----------------
A----------------------------------------------------
E----------------------------------------------------


e--8-5-----------------------------------------------
B------8-5-------------------------------------------
G----------7-5-7b--5-----5-7-7b-7-5-7~~~-------------
D--------------------5h7-----------------------------
A----------------------------------------------------
E----------------------------------------------------


e----------------------/8-8---8-8---10-10-10-8-------
B------------------8---/8-8-8-----8-8--8--8--8-------
G------------4-5-7---7-------------------------------
D--------5-7-----------------------------------------
A--5-7-8---------------------------------------------
E----------------------------------------------------


e--12----12----13-12-15-13-12-10-8-7-8~~~------------
B-----12----12---------------------------------------
G----------------------------------------------------
D----------------------------------------------------
A----------------------------------------------------
E----------------------------------------------------


Solo 2 ~ 4:21

e----------------------------------------------------
B--------------0-1--3--3-3/5-3-1-0-------------------
G----------0-2---------------------------------------
D----0-2-3-------------------------------------------
A--3-------------------------------------------------
E----------------------------------------------------


e----------------------------------------------------
B--3-1-1-0-------------------------------------------
G----------2-0---------------------------------------
D--------------3-2-3~-2~-----------------------------
A----------------------------------------------------
E----------------------------------------------------


e--10-10-10-8-10-8--8-10-8-5-------------------------
B--8--8--8--8-8--8--8-8--8-5-------------------------
G----------------------------7b-5-----5--------------
D---------------------------------5h7----------------
A----------------------------------------------------
E----------------------------------------------------


e----------------------------------------------------
B----------------------------------------------------
G--5-55------5-7b~-7-7/9--5~~-/12--------------------
D--5-55--5h7-----------------------------------------
A----------------------------------------------------
E----------------------------------------------------


Solo 3 ~ 5:45

e--8-8-8-8-10-8--8-10-10-8-7~--7-7-7-7-7/8-7-5-------
B--8-8-8-8-8--8--8-8--8--8---------------------8-----
G----------------------------------------------------
D----------------------------------------------------
A----------------------------------------------------
E----------------------------------------------------


e-----------------------------------5-7-8-8/10-8-----
B-----------------------------5-6-8------------------
G-----------------------4-5-7------------------------
D--------------------7-------------------------------
A----------------------------------------------------
E----------------------------------------------------


e--15----15----15-15-13-12-10-10-8-8/12-12-10-8---8-8---8-10-10-10-12b-8-
B-----15----15----15----------------/12-12-10---8-----8-8-8--8--8--12b-8-
G------------------------------------------------------------------------
D------------------------------------------------------------------------
A------------------------------------------------------------------------
E------------------------------------------------------------------------


Solo 4 7:47

e----------------------------------------------------
B----------------------------------------------------
G----------5-7-7-55-7-5-7-7-5-7-7b--8-7-5-7-5--------
D------5-7------------5-5-5-5-5-7b--5-5-5-5-5-7-5----
A--5-7-----------------------------------------------
E----------------------------------------------------


e-------------------------/8-8-8-10-8-88-10-8-8-8-5-5
B----------------5h66-5---/8-8-8-8--8-88-8--8-8-8-5-5
G-----------5h7--------------------------------------
D------5h7-------------------------------------------
A--5h7-----------------------------------------------
E----------------------------------------------------


e----------------------------------------/8-8-8-8-8-8-8-8-8-8-8-8-8/10p8-5-
B---------------------------------5-5h8p5/8-8------------------------------
G--7p5--------5-5-----55--5b-55-7-5-5--------------------------------------
D------55-5h7---5-5h7-55--5b-55-5------------------------------------------
A--------------------------------------------------------------------------
E--------------------------------------------------------------------------

softer
e------------------------------------
B------------------------------------
G--7p5-----5-7-5-----5-7-7b--7-5-5~~-
D------5h7-------5h7-----------------
A------------------------------------
E------------------------------------


e-------------------------------------------------------------------------------
B------------------------------------------8b-6-5-5h6/5-------------------------
G-----------5---7b-5-----5-5-7b-5-7-7-7-7---------------7-5-4-5-7-5-----5-7b5~~-
D------5-5h7---------7-5--------------------------------------------5-7---------
A-5-5h7-------------------------------------------------------------------------
E-------------------------------------------------------------------------------

and now the live version! i wish..