Click here for a printer friendly version of this page
That Was A Crazy Game Of Poker > bass

Transcribed by Mike Larson (oarcat@email.com)

C - G - F - A are your notes for the verses.. play them all in half and first positions - 
example:

----------------------------------
---------------------3--2--0------
---3-------0------------------3---
-------3-------1------------------


-------------0-----------------------------------
----------2-------------0---------------3-2-0----
----3-3--------------2----0--0-3-0------------3--
-----------------3-3------------------1----------
I say of you say a..