Click here for a printer friendly version of this page
Tragedy In Waiting > guitar

transcribed by Jason Scherrer

Intro/Verse/Chorus

e---2-------
b---2-------
g---2---1---
d---4---2---
a---4---2---
E---2-------

Chorus Sax/Lead Part

e-------------7------------------7--------
b---10-9-10-9---10-7---10-9-10-9---10-----
g-------------------------------------9---
d-----------------------------------------
a-----------------------------------------
E-----------------------------------------

Bridge

e---4---5---7---9----
b---4---5---7---9----
g---4---6---8---9----
d---6---7---9---11---
a---6---7---9---11---
E---4---5---7---9----