Click here for a printer friendly version of this page
Love And Memories > guitar

Artist - O.A.R
Song - Love and memories
Tabber - Jon Email-badhairday101514@yahoo.com

Intro guitar 1(jerry)
1st ending 2nd ending
----------------|------------------------|--------------|
----------------|------------------------|--------------|
8-8-8-9-9-9-9-9-|/18-18-1813-13-13-13-13-|-6-6-6-6------|
----------------|------------------------|---------2-2-2|
6-6-6-7-7-7-7-7-|/16-16-1611-11-11-11-11-|-4-4-4-4-2-2-2|
----------------|------------------------|---------0-0-0|

Intro guitar 2(Richard)not 100% sure on this part

-----------------7-----------------|
-------9------------------9--------|
-8-9-8---9-8-9-8---9-8-9----9-8-9--|
-----------------------------------|
-----------------------------------|
-----------------------------------|

Intro guitar 3(Marc)
1st ending 2nd ending
-------------------------|----------|----------
-------------------------|----------|----------
-4-4-4-4-6-6-6-6-2-2-2-2-|----------|-9-9-9----
-4-4-4-4-6-6-6-6-2-2-2-2-|2-2-2-2---|-9-9-9----
-2-2-2-2-4-4-4-4-0-0-0-0-|2-2-2-2---|-7-7-7----
-------------------------|0-0-0-0---|----------

Verse guitar 1(16x's each)

------------------------------------------------|
------------------------------------------------|
------------------------------------------------|
999999999999999999999999999999999999999999999999|
666777777777777766666666666666664444444444444444|
------------------------------------------------|
PM..............................................
1st ending 2nd ending
-----------------|--------------------------------------
-----------------|--------------------------------------
-----------------|--------------------------------------
9999999999999999-|-9999999999999999---------------------
6667777777777777-|--------------------------------------
-----------------|-5555555555555555---------------------
PM.............................
Verse Guitar 2(* where second ending starts)
--------------------------
------*-------------------
-6666-9999999999999999----
--------------------------
-4444-7777777777777777----
--------------------------

chorus same as intro

Bridge

Guitar 1(4x’s each)

------------------------------------
------------------------------------
-----9--------7--------5--------4---
---9---9----7---7----5---5----4---4-
-7--------5--------3--------2-------
------------------------------------
PM.................................

Guitar 2

--------------------------------------------------------
-------9--------------------7---------------------------
-----9--------------------7-----------------------------
---9--------------------7-------------------------------
-7-------777777777777-5-------555555555555--------------
--------------------------------------------------------
PM.......... PM..........

--------------------------------------------------------
-------5--------------------4---------------------------
-----5--------------------4-----------------------------
---5--------------------4-------------------------------
-3-------333333333333-2-------222222222222--------------
--------------------------------------------------------
PM.......... PM..........

Guitar 3

------------------
------------------
-9----7----5----4-
-9----7----5----4-
-7----5----3----2-
------------------