Click here for a printer friendly version of this page
That Was A Crazy Game Of Poker > bass

transcribed by skinnybwb03

tab varies

E-----3---5--1--
A--3------------
D---------------
G---------------


E---------------
A--3------------
D-----5---7---3-
G---------------