Click here for a printer friendly version of this page
Rhythm Of Your Shoes > lead

transcribed by Justin=OARFAN

Rhythm of your shoes lead guitar from 93.9 Radio show. (Acoustic)

e----------8--------7-----5-------3---------1-
b---------------------------------------------
g----4/9------7------5------4---------2------- Repeat alot...
d---------------------------------------------
a---------------------------------------------
E---------------------------------------------

chorus lead guitar for ROYS acoustic

e--------3---5-5--------3--5-5-7-
b--------------------------------
g---3/4------------3/4-----------
d--------------------------------
a--------------------------------
E--------------------------------

e------------------------------------------------------------------------------
b------------------------------------------------------------------------------
g---5-5-7-5--7-7-9-7--9-9-10h12--2-2-4-4-5-4--4-4-5-4-4-4-5-4-4-4-5-4-4-4-5-4--
d------------------------------------------------------------------------------
a------------------------------------------------------------------------------
E------------------------------------------------------------------------------