Click here for a printer friendly version of this page
Shattered (Turn The Car Around) > guitar

Piano= B D# E D# B over and over...

e-------------
B----4--5-4---
G-4-----------
D-------------
A-------------
E-------------

This is the piano part tabbed for guitar. Rich played it this way in a youtube video.

OR

Bump that piano part up an octave or two. Maybe around...

e--------12-------
b-12-16----16-12-- .....and repeat
g-----------------
d ----------------
a ----------------
E-----------------

This is what the actual notes are that are played on the Piano, so I'll let you choose.

Guitar

The Verse is pretty much the same chords as the Chorus.

"In a way need a change...But it's always back to you."

e--x--x--x--x--o--x--x-
b--x--x--x--x--o--x--x-
g--8--8--4--3--1--3--8-
d--9--9--6--4--2--4--9-
a--9--9--6--4--2--4--9-
E--7--6--4--2--0--2--7-

((Same thing as above for continuation of the first verse...
"Stumble out, in the night…always back to you"))

"But I'm good, without you...yeaa yeaa yeaaaaaaaaa"
e--0--0--0--0--2-
b--0--0--0--0--2-
g--2--8--2--8--3-
d--2--9--2--9--4-
a--1--9--1--9--4-
E--0--7--0--7--2-

Chorus
How many times can I break till I shatter
e--0
b--0
g--8
d--9
a--9
E--7

Over the line can divide what I'm after
e--0
b--0
g--8
d--9
a--9
E--6

I always turn the car around
e--x---x
b--x---x
g--4---3
d--6---4
a--6---4
E--4---2

Give me a break let me make my own pattern
e--0
b--0
g--8
d--9
a--9
E--7

All that it takes is some time but I'm shattered
e--0
b--0
g--8
d--9
a--9
E--6

I always turn the car around
e--x---x---x
b--x---x---x
g--4---3---8
d--6---4---9
a--6---4---9
E--4---2---7

((The next verse is the same as the first verse...
"I had no Idea that the night…Push me back to you"))

(((Same as first part for these lyrics as well...
"But I'm good…Yeah, Yeah, Yeah")))

((((Chorus is the same as before))))

Guitar Solo in starting at 2:34 (They are all the right notes,
but may not be exactly the same way Rich plays it.)
e--------------------------------------------------------------
b--------------------------------------------------------------
g------------------13/15-16-15---------------------------------
d---16-16-16-16----------------16-16-16-16-16-16/18-18-13-13---
a--------------------------------------------------------------
E-------------------------------------------------------------- repeat 3 times

4th time through play this...
e--------------------------------------------------------------
b--------------------------------------------------------------
g-----------------13/15-16-15-15/18-18-18-18-18/20-20-18-16----
d-16-16-16-16--------------------------------------------------
a--------------------------------------------------------------
E--------------------------------------------------------------

Chord part with Guitar solo starting around 2:34 in the song
e---x---0---x
b---x---0---x
g---4---1---3
d---4---2---4
a---2---2---4
E---x---0---2


"Give it up baby, give it up give it up now"
e---0---x---0---x
b---0---x---0---x
g---1---4---1---4
d---2---4---2---4
a---2---2---2---2
E---0---x---o---x

"Nowwwwwwwww"
e--x--0
b--x--0
g--3--1
d--4--2
a--4--2
E--2--0


Repeat the chorus until the end when Marc sings. "Don't wanna turn that car around,
I gotta turn this thing around."
e---x---x---x---x--|
b---x---x---x---x--|
g---3---8---3---8--|
d---4---9---4---9--|
a---4---9---4---9--|
E---2---7---2---7--|



Ask if you have any more questions.


I realized that Marc also plays it differently in the deep rocks drive concert.
I tabbed out a little bit the part how marc plays it after watching that video.
It kind of goes something like this...

e--x---x---x---x---x---x---x
b--x---x---x---x---x---x---x
g--4---4---4---x---x---x---4
d--4---4---4---4---4---4---4
a--2---1---x---x---2---x---2
E--x---x---3---2---0---2---x

He basically starts our using the power chord B rather than the barre chord B.