Click here for a printer friendly version of this page
Back To One > guitar

transcribed by oarboat

Back to One - Acoustic Version: 11/16/2011 from Rock the Kasbah in L.A. 

Verse: "I see you there, but you don't look right..."
Finger pick through these chords:
---x--------------x----------------------------------------------e
---4----0---------x-----------------------------------------------
---5----2----1----4-----------------------------------------------  
---6----2----2----4-----------------------------------------------
---6----0----2----2-----------------------------------------------
---x----x---------x----------------------------------------------E

Chorus / Bridge: "Don't look back..." / "Bring me back to one...I know forever always asks so much..."
The parenthesis means the top two high (e & b) strings can be played either open or muted.
Sounds good incorporating a little variation of both open and muted throughout.
If you listen to this version you can pick up on it being played with a little bit of both. 
---0(x)-----0(x)----0(x)-----0(x)--------------------------------e
---0(x)-----0(x)----0(x)-----0(x)---------------------------------
---9--------9--------9--------9-----------------------------------
---9--------9--------9--------9-----------------------------------
---7--------0--------x--------x-----------------------------------
---0--------x--------9--------7----------------------------------E

Outro: "oh, oh, oh, ohhh..."
-------------x-----x--------------------------------e
-------------5-----x---------------------------------
---1----2----6-----4---------------1-----------------
---2----2----6-----4-------end on--2-----------------
---2---------4-----2---------------2-----------------
-------------x-----x--------------------------------E