Click here for a printer friendly version of this page
Are You For Real? > guitar

transcribed by oarboat


Are You For Real - Bowery Ballroom Version NYC 03.10.12

Intro/Verse/Chorus
--6---7---x---9----------------------------------e
--7---7---11--9-----------------------------------
--8---8---11--10----------------------------------
--8---9---11--11----------------------------------
--6---9---9---11----------------------------------
--6---7---x---9----------------------------------E


Bridge...."Ya call me every morning..."
--7---2---x--x-------7---2---x---x---------------e
--7---2---x--x-------7---2---x---x---------------
--8---3---6--8--x3---8---3---6---6---------------
--9---4---6--8-------9---4---6---6---------------
--9---4---4--6-------9---4---4---4---------------
--7---2---x--x-------7---2-----------------------E