Click here for a printer friendly version of this page
Hold On True > guitar

transcribed by Jason Scherrer

e------------7---5---
b------------7---5---
g---9/11-9---8---6---   ***Note, the slide up and down is not written to
d---9/11-9---9---7---      the beat.  So listen then play to it
a---7/9--7---9---7---
E------------7---5---

Bridge

e-------2---5---7---
b-------2---5---7---
g---1---3---6---8---
d---2---4---7---9---
a---2---4---7---9---
E-------2---5---7---

or

e------------5---7---
b------------5---7---
g---9---11---6---8---
d---9---11---7---9---
a---7---9----7---9---
E------------5---7---