Click here for a printer friendly version of this page
Woke Up An Uncle > guitar

transcribed by Josh Kaufman and fredericks.t
AIM: spoon1tang8lcan7
OAR msg board: countycop

---D---D---G---G---C---C---F---F---
E--10--10--10--10--8---8---8---8---
B--10--10--12--12--8---8---10--10--
G--11--11--12--12--9---9---10--10--
D--12--12----------10--10----------
A----------------------------------
E----------------------------------

OR

E--10--10--10--10--8---8---8---8---
B--10--10--12--12--8---8---10--10--
G--11--11--12--12--9---9---10--10--
D--12--12--12--12--10--10--10--10--
A--12--12--10--10--10--10--8---8---
E--10--10--10--10--8---8---8---8---

that's the whole song, just play D, G, C, F for the rhythm part